ISO-10303-21;
HEADER;
FILE_DESCRIPTION (( 'STEP AP203' ),
    '1' );
FILE_NAME ('QB-CTZQWP-20-795-M.STEP',
    '2020-12-24T01:50:31',
    ( '' ),
    ( '' ),
    'SwSTEP 2.0',
    'SolidWorks 2020',
    '' );
FILE_SCHEMA (( 'CONFIG_CONTROL_DESIGN' ));
ENDSEC;

DATA;
#1 = DATE_AND_TIME ( #331, #77 ) ;
#2 = CIRCLE ( 'NONE', #226, 10.00000000000000000 ) ;
#3 = AXIS2_PLACEMENT_3D ( 'NONE', #229, #257, #143 ) ;
#4 = PERSON_AND_ORGANIZATION_ROLE ( 'creator' ) ;
#5 = CARTESIAN_POINT ( 'NONE',  ( -1.614212418857619014, 1.555301434917138433E-15, -12.69999999999999929 ) ) ;
#6 = DIRECTION ( 'NONE',  ( 0.000000000000000000, 0.000000000000000000, 1.000000000000000000 ) ) ;
#7 = EDGE_LOOP ( 'NONE', ( #270, #65, #247, #218 ) ) ;
#8 = AXIS2_PLACEMENT_3D ( 'NONE', #299, #144, #110 ) ;
#9 = CARTESIAN_POINT ( 'NONE',  ( -3.000000000000000000, 0.000000000000000000, 0.000000000000000000 ) ) ;
#10 = ORIENTED_EDGE ( 'NONE', *, *, #91, .T. ) ;
#11 = CARTESIAN_POINT ( 'NONE',  ( -2.500000000000000444, 10.00000000000000000, 0.000000000000000000 ) ) ;
#12 = ORIENTED_EDGE ( 'NONE', *, *, #215, .F. ) ;
#13 = PLANE ( 'NONE',  #252 ) ;
#14 = ORIENTED_EDGE ( 'NONE', *, *, #120, .T. ) ;
#15 = EDGE_CURVE ( 'NONE', #224, #46, #61, .T. ) ;
#16 = APPROVAL_PERSON_ORGANIZATION ( #150, #334, #25 ) ;
#17 = CARTESIAN_POINT ( 'NONE',  ( 2.500000000000000888, 0.000000000000000000, 0.000000000000000000 ) ) ;
#18 = CARTESIAN_POINT ( 'NONE',  ( -1.614212418857619014, 0.000000000000000000, 0.000000000000000000 ) ) ;
#19 = DIRECTION ( 'NONE',  ( -1.000000000000000000, -0.000000000000000000, -0.000000000000000000 ) ) ;
#20 = DIRECTION ( 'NONE',  ( 0.000000000000000000, 0.000000000000000000, 1.000000000000000000 ) ) ;
#21 = PERSON_AND_ORGANIZATION ( #221, #42 ) ;
#22 = AXIS2_PLACEMENT_3D ( 'NONE', #17, #275, #141 ) ;
#23 = LINE ( 'NONE', #177, #54 ) ;
#24 = EDGE_CURVE ( 'NONE', #46, #224, #305, .T. ) ;
#25 = APPROVAL_ROLE ( '' ) ;
#26 = VECTOR ( 'NONE', #198, 1000.000000000000000 ) ;
#27 = APPROVAL_ROLE ( '' ) ;
#28 = PERSON_AND_ORGANIZATION ( #221, #42 ) ;
#29 = DESIGN_CONTEXT ( 'detailed design', #213, 'design' ) ;
#30 = COORDINATED_UNIVERSAL_TIME_OFFSET ( 8, 0, .AHEAD. ) ;
#31 = ADVANCED_FACE ( 'NONE', ( #115 ), #197, .F. ) ;
#32 = DIRECTION ( 'NONE',  ( 0.000000000000000000, 0.000000000000000000, 1.000000000000000000 ) ) ;
#33 = ORIENTED_EDGE ( 'NONE', *, *, #280, .F. ) ;
#34 = FACE_OUTER_BOUND ( 'NONE', #114, .T. ) ;
#35 = CIRCLE ( 'NONE', #151, 10.00000000000000000 ) ;
#36 = DIRECTION ( 'NONE',  ( -1.000000000000000000, -0.000000000000000000, -0.000000000000000000 ) ) ;
#37 = ORIENTED_EDGE ( 'NONE', *, *, #173, .T. ) ;
#38 = DIRECTION ( 'NONE',  ( 0.000000000000000000, 0.000000000000000000, 1.000000000000000000 ) ) ;
#39 = ORIENTED_EDGE ( 'NONE', *, *, #232, .T. ) ;
#40 = ORIENTED_EDGE ( 'NONE', *, *, #57, .F. ) ;
#41 = AXIS2_PLACEMENT_3D ( 'NONE', #174, #147, #302 ) ;
#42 = ORGANIZATION ( 'UNSPECIFIED', 'UNSPECIFIED', '' ) ;
#43 = CARTESIAN_POINT ( 'NONE',  ( 2.500000000000000888, 0.000000000000000000, 0.000000000000000000 ) ) ;
#44 = CYLINDRICAL_SURFACE ( 'NONE', #261, 12.69999999999999929 ) ;
#45 = EDGE_CURVE ( 'NONE', #87, #295, #175, .T. ) ;
#46 = VERTEX_POINT ( 'NONE', #313 ) ;
#47 = CARTESIAN_POINT ( 'NONE',  ( -1.614212418857619014, 0.000000000000000000, 10.00000000000000000 ) ) ;
#48 = DIRECTION ( 'NONE',  ( 0.000000000000000000, 0.000000000000000000, 1.000000000000000000 ) ) ;
#49 = APPROVAL ( #228, 'UNSPECIFIED' ) ;
#50 = DATE_TIME_ROLE ( 'classification_date' ) ;
#51 = PERSON_AND_ORGANIZATION ( #221, #42 ) ;
#52 = PRODUCT_DEFINITION_SHAPE ( 'NONE', 'NONE',  #63 ) ;
#53 = DATE_TIME_ROLE ( 'creation_date' ) ;
#54 = VECTOR ( 'NONE', #124, 1000.000000000000000 ) ;
#55 = DIRECTION ( 'NONE',  ( 0.000000000000000000, 0.000000000000000000, -1.000000000000000000 ) ) ;
#56 = LINE ( 'NONE', #5, #230 ) ;
#57 = EDGE_CURVE ( 'NONE', #87, #109, #56, .T. ) ;
#58 = CARTESIAN_POINT ( 'NONE',  ( -3.000000000000000444, 0.000000000000000000, 0.000000000000000000 ) ) ;
#59 = VECTOR ( 'NONE', #291, 1000.000000000000000 ) ;
#60 = ORIENTED_EDGE ( 'NONE', *, *, #120, .F. ) ;
#61 = CIRCLE ( 'NONE', #245, 10.00000000000000000 ) ;
#62 = CC_DESIGN_APPROVAL ( #334, ( #82 ) ) ;
#63 = PRODUCT_DEFINITION ( 'UNKNOWN', '', #189, #29 ) ;
#64 = CARTESIAN_POINT ( 'NONE',  ( -1.614212418857619014, 1.224646799147353256E-15, -10.00000000000000000 ) ) ;
#65 = ORIENTED_EDGE ( 'NONE', *, *, #256, .T. ) ;
#66 = ORIENTED_EDGE ( 'NONE', *, *, #57, .T. ) ;
#67 = ORIENTED_EDGE ( 'NONE', *, *, #94, .F. ) ;
#68 = DIRECTION ( 'NONE',  ( -1.000000000000000000, -0.000000000000000000, -0.000000000000000000 ) ) ;
#69 = APPROVAL_PERSON_ORGANIZATION ( #279, #49, #201 ) ;
#70 = DIRECTION ( 'NONE',  ( 0.000000000000000000, 0.000000000000000000, 1.000000000000000000 ) ) ;
#71 = DIRECTION ( 'NONE',  ( -1.000000000000000000, -0.000000000000000000, -0.000000000000000000 ) ) ;
#72 = ADVANCED_BREP_SHAPE_REPRESENTATION ( 'QB-CTZQWP-20-795-M', ( #284, #101 ), #88 ) ;
#73 = COORDINATED_UNIVERSAL_TIME_OFFSET ( 8, 0, .AHEAD. ) ;
#74 = DIRECTION ( 'NONE',  ( 0.000000000000000000, 0.000000000000000000, 1.000000000000000000 ) ) ;
#75 = ADVANCED_FACE ( 'NONE', ( #34 ), #211, .F. ) ;
#76 = APPLICATION_PROTOCOL_DEFINITION ( 'international standard', 'config_control_design', 1994, #213 ) ;
#77 = LOCAL_TIME ( 9, 50, 31.00000000000000000, #73 ) ;
#78 = SHAPE_DEFINITION_REPRESENTATION ( #52, #72 ) ;
#79 = SECURITY_CLASSIFICATION_LEVEL ( 'unclassified' ) ;
#80 = CARTESIAN_POINT ( 'NONE',  ( -1.614212418857619014, 0.000000000000000000, 0.000000000000000000 ) ) ;
#81 = VECTOR ( 'NONE', #184, 1000.000000000000000 ) ;
#82 = SECURITY_CLASSIFICATION ( '', '', #79 ) ;
#83 = CARTESIAN_POINT ( 'NONE',  ( -1.614212418857619014, 0.000000000000000000, 12.69999999999999929 ) ) ;
#84 = ORIENTED_EDGE ( 'NONE', *, *, #285, .T. ) ;
#85 = CARTESIAN_POINT ( 'NONE',  ( -3.000000000000000444, 1.224646799147353256E-15, -10.00000000000000000 ) ) ;
#86 = DIRECTION ( 'NONE',  ( 0.000000000000000000, 0.000000000000000000, -1.000000000000000000 ) ) ;
#87 = VERTEX_POINT ( 'NONE', #158 ) ;
#88 =( GEOMETRIC_REPRESENTATION_CONTEXT ( 3 ) GLOBAL_UNCERTAINTY_ASSIGNED_CONTEXT ( ( #329 ) ) GLOBAL_UNIT_ASSIGNED_CONTEXT ( ( #123, #307, #249 ) ) REPRESENTATION_CONTEXT ( 'NONE', 'WORKASPACE' ) );
#89 = ORIENTED_EDGE ( 'NONE', *, *, #45, .T. ) ;
#90 = CARTESIAN_POINT ( 'NONE',  ( 2.500000000000000444, 10.00000000000000000, 0.000000000000000000 ) ) ;
#91 = EDGE_CURVE ( 'NONE', #135, #46, #209, .T. ) ;
#92 = ORIENTED_EDGE ( 'NONE', *, *, #24, .F. ) ;
#93 = LINE ( 'NONE', #47, #26 ) ;
#94 = EDGE_CURVE ( 'NONE', #295, #170, #314, .T. ) ;
#95 = PERSON_AND_ORGANIZATION_ROLE ( 'design_owner' ) ;
#96 = VERTEX_POINT ( 'NONE', #129 ) ;
#97 = CARTESIAN_POINT ( 'NONE',  ( 3.000000000000000000, 0.000000000000000000, 12.69999999999999929 ) ) ;
#98 = CC_DESIGN_DATE_AND_TIME_ASSIGNMENT ( #205, #50, ( #82 ) ) ;
#99 = CARTESIAN_POINT ( 'NONE',  ( -1.614212418857619014, 0.000000000000000000, 0.000000000000000000 ) ) ;
#100 = CIRCLE ( 'NONE', #286, 10.00000000000000000 ) ;
#101 = AXIS2_PLACEMENT_3D ( 'NONE', #169, #304, #303 ) ;
#102 = PERSON_AND_ORGANIZATION_ROLE ( 'creator' ) ;
#103 = COORDINATED_UNIVERSAL_TIME_OFFSET ( 8, 0, .AHEAD. ) ;
#104 = CALENDAR_DATE ( 2020, 24, 12 ) ;
#105 = ADVANCED_FACE ( 'NONE', ( #185, #264 ), #132, .F. ) ;
#106 = DIRECTION ( 'NONE',  ( -1.000000000000000000, -0.000000000000000000, -0.000000000000000000 ) ) ;
#107 = CARTESIAN_POINT ( 'NONE',  ( -1.614212418857619014, 1.224646799147353256E-15, -10.00000000000000000 ) ) ;
#108 = CLOSED_SHELL ( 'NONE', ( #122, #312, #31, #154, #75, #146, #105, #311, #200, #277 ) ) ;
#109 = VERTEX_POINT ( 'NONE', #156 ) ;
#110 = DIRECTION ( 'NONE',  ( 0.000000000000000000, 0.000000000000000000, 1.000000000000000000 ) ) ;
#111 = DIRECTION ( 'NONE',  ( 1.000000000000000000, 0.000000000000000000, 0.000000000000000000 ) ) ;
#112 = DIRECTION ( 'NONE',  ( 0.000000000000000000, 0.000000000000000000, -1.000000000000000000 ) ) ;
#113 = CIRCLE ( 'NONE', #179, 12.69999999999999929 ) ;
#114 = EDGE_LOOP ( 'NONE', ( #271, #268, #219, #191 ) ) ;
#115 = FACE_OUTER_BOUND ( 'NONE', #212, .T. ) ;
#116 = CARTESIAN_POINT ( 'NONE',  ( -2.500000000000000444, 1.224646799147353256E-15, -10.00000000000000000 ) ) ;
#117 = FACE_OUTER_BOUND ( 'NONE', #250, .T. ) ;
#118 = ORIENTED_EDGE ( 'NONE', *, *, #301, .F. ) ;
#119 = CARTESIAN_POINT ( 'NONE',  ( -1.614212418857619014, 0.000000000000000000, 0.000000000000000000 ) ) ;
#120 = EDGE_CURVE ( 'NONE', #159, #292, #35, .T. ) ;
#121 = MECHANICAL_CONTEXT ( 'NONE', #254, 'mechanical' ) ;
#122 = ADVANCED_FACE ( 'NONE', ( #220 ), #44, .T. ) ;
#123 =( LENGTH_UNIT ( ) NAMED_UNIT ( * ) SI_UNIT ( .MILLI., .METRE. ) );
#124 = DIRECTION ( 'NONE',  ( -1.000000000000000000, -0.000000000000000000, -0.000000000000000000 ) ) ;
#125 = AXIS2_PLACEMENT_3D ( 'NONE', #316, #214, #137 ) ;
#126 = CALENDAR_DATE ( 2020, 24, 12 ) ;
#127 = PERSON_AND_ORGANIZATION_ROLE ( 'design_supplier' ) ;
#128 = PERSON_AND_ORGANIZATION_ROLE ( 'classification_officer' ) ;
#129 = CARTESIAN_POINT ( 'NONE',  ( -3.000000000000000444, 0.000000000000000000, 10.00000000000000000 ) ) ;
#130 = ORIENTED_EDGE ( 'NONE', *, *, #256, .F. ) ;
#131 = CC_DESIGN_PERSON_AND_ORGANIZATION_ASSIGNMENT ( #28, #102, ( #63 ) ) ;
#132 = PLANE ( 'NONE',  #326 ) ;
#133 = VECTOR ( 'NONE', #288, 1000.000000000000000 ) ;
#134 = CC_DESIGN_SECURITY_CLASSIFICATION ( #82, ( #189 ) ) ;
#135 = VERTEX_POINT ( 'NONE', #142 ) ;
#136 = DIRECTION ( 'NONE',  ( 0.000000000000000000, 0.000000000000000000, 1.000000000000000000 ) ) ;
#137 = DIRECTION ( 'NONE',  ( 0.000000000000000000, 0.000000000000000000, 1.000000000000000000 ) ) ;
#138 = EDGE_LOOP ( 'NONE', ( #265, #167 ) ) ;
#139 = CIRCLE ( 'NONE', #333, 12.69999999999999929 ) ;
#140 = EDGE_LOOP ( 'NONE', ( #317, #237 ) ) ;
#141 = DIRECTION ( 'NONE',  ( 0.000000000000000000, 0.000000000000000000, 1.000000000000000000 ) ) ;
#142 = CARTESIAN_POINT ( 'NONE',  ( 2.999999999999999112, 1.224646799147353256E-15, -10.00000000000000000 ) ) ;
#143 = DIRECTION ( 'NONE',  ( 0.000000000000000000, 0.000000000000000000, 1.000000000000000000 ) ) ;
#144 = DIRECTION ( 'NONE',  ( -1.000000000000000000, -0.000000000000000000, -0.000000000000000000 ) ) ;
#145 = DIRECTION ( 'NONE',  ( 1.000000000000000000, 0.000000000000000000, 0.000000000000000000 ) ) ;
#146 = ADVANCED_FACE ( 'NONE', ( #248 ), #321, .F. ) ;
#147 = DIRECTION ( 'NONE',  ( -1.000000000000000000, -0.000000000000000000, -0.000000000000000000 ) ) ;
#148 = AXIS2_PLACEMENT_3D ( 'NONE', #90, #195, #274 ) ;
#149 = CARTESIAN_POINT ( 'NONE',  ( -3.000000000000000000, 0.000000000000000000, 0.000000000000000000 ) ) ;
#150 = PERSON_AND_ORGANIZATION ( #221, #42 ) ;
#151 = AXIS2_PLACEMENT_3D ( 'NONE', #263, #236, #327 ) ;
#152 = APPROVAL_STATUS ( 'not_yet_approved' ) ;
#153 = DATE_AND_TIME ( #126, #287 ) ;
#154 = ADVANCED_FACE ( 'NONE', ( #251 ), #323, .F. ) ;
#155 = CIRCLE ( 'NONE', #253, 12.69999999999999929 ) ;
#156 = CARTESIAN_POINT ( 'NONE',  ( -3.000000000000000000, 1.555301434917138433E-15, -12.69999999999999929 ) ) ;
#157 = CC_DESIGN_PERSON_AND_ORGANIZATION_ASSIGNMENT ( #258, #127, ( #189 ) ) ;
#158 = CARTESIAN_POINT ( 'NONE',  ( 3.000000000000000000, 1.555301434917138433E-15, -12.69999999999999929 ) ) ;
#159 = VERTEX_POINT ( 'NONE', #116 ) ;
#160 = CARTESIAN_POINT ( 'NONE',  ( 2.500000000000000888, 0.000000000000000000, 10.00000000000000000 ) ) ;
#161 = CC_DESIGN_APPROVAL ( #222, ( #189 ) ) ;
#162 = ORIENTED_EDGE ( 'NONE', *, *, #24, .T. ) ;
#163 = DIRECTION ( 'NONE',  ( -0.000000000000000000, 0.000000000000000000, 1.000000000000000000 ) ) ;
#164 = EDGE_LOOP ( 'NONE', ( #322, #60 ) ) ;
#165 = ORIENTED_EDGE ( 'NONE', *, *, #15, .F. ) ;
#166 = EDGE_CURVE ( 'NONE', #292, #96, #93, .T. ) ;
#167 = ORIENTED_EDGE ( 'NONE', *, *, #45, .F. ) ;
#168 = DIRECTION ( 'NONE',  ( 0.000000000000000000, 0.000000000000000000, 1.000000000000000000 ) ) ;
#169 = CARTESIAN_POINT ( 'NONE',  ( 0.000000000000000000, 0.000000000000000000, 0.000000000000000000 ) ) ;
#170 = VERTEX_POINT ( 'NONE', #300 ) ;
#171 = DIRECTION ( 'NONE',  ( 0.000000000000000000, 0.000000000000000000, 1.000000000000000000 ) ) ;
#172 = DIRECTION ( 'NONE',  ( 0.000000000000000000, 0.000000000000000000, 1.000000000000000000 ) ) ;
#173 = EDGE_CURVE ( 'NONE', #295, #87, #113, .T. ) ;
#174 = CARTESIAN_POINT ( 'NONE',  ( 2.999999999999999112, 0.000000000000000000, 0.000000000000000000 ) ) ;
#175 = CIRCLE ( 'NONE', #210, 12.69999999999999929 ) ;
#176 = LOCAL_TIME ( 9, 50, 31.00000000000000000, #103 ) ;
#177 = CARTESIAN_POINT ( 'NONE',  ( -1.614212418857619014, 0.000000000000000000, 10.00000000000000000 ) ) ;
#178 = CC_DESIGN_PERSON_AND_ORGANIZATION_ASSIGNMENT ( #283, #128, ( #82 ) ) ;
#179 = AXIS2_PLACEMENT_3D ( 'NONE', #297, #71, #171 ) ;
#180 = EDGE_CURVE ( 'NONE', #292, #159, #2, .T. ) ;
#181 = CALENDAR_DATE ( 2020, 24, 12 ) ;
#182 = CIRCLE ( 'NONE', #41, 10.00000000000000000 ) ;
#183 = CIRCLE ( 'NONE', #328, 10.00000000000000000 ) ;
#184 = DIRECTION ( 'NONE',  ( -1.000000000000000000, -0.000000000000000000, -0.000000000000000000 ) ) ;
#185 = FACE_BOUND ( 'NONE', #290, .T. ) ;
#186 = VERTEX_POINT ( 'NONE', #216 ) ;
#187 = CARTESIAN_POINT ( 'NONE',  ( 3.000000000000000000, 0.000000000000000000, 0.000000000000000000 ) ) ;
#188 = CARTESIAN_POINT ( 'NONE',  ( 2.999999999999999112, 12.69999999999999929, 0.000000000000000000 ) ) ;
#189 = PRODUCT_DEFINITION_FORMATION_WITH_SPECIFIED_SOURCE ( 'ANY', '', #204, .NOT_KNOWN. ) ;
#190 = FACE_BOUND ( 'NONE', #140, .T. ) ;
#191 = ORIENTED_EDGE ( 'NONE', *, *, #15, .T. ) ;
#192 = CC_DESIGN_PERSON_AND_ORGANIZATION_ASSIGNMENT ( #21, #95, ( #204 ) ) ;
#193 = ORIENTED_EDGE ( 'NONE', *, *, #330, .F. ) ;
#194 = EDGE_LOOP ( 'NONE', ( #130, #14, #272, #315 ) ) ;
#195 = DIRECTION ( 'NONE',  ( -1.000000000000000000, 0.000000000000000000, -0.000000000000000000 ) ) ;
#196 = CYLINDRICAL_SURFACE ( 'NONE', #199, 10.00000000000000000 ) ;
#197 = CYLINDRICAL_SURFACE ( 'NONE', #8, 10.00000000000000000 ) ;
#198 = DIRECTION ( 'NONE',  ( -1.000000000000000000, -0.000000000000000000, -0.000000000000000000 ) ) ;
#199 = AXIS2_PLACEMENT_3D ( 'NONE', #99, #278, #48 ) ;
#200 = ADVANCED_FACE ( 'NONE', ( #241, #190 ), #318, .F. ) ;
#201 = APPROVAL_ROLE ( '' ) ;
#202 = CYLINDRICAL_SURFACE ( 'NONE', #3, 12.69999999999999929 ) ;
#203 = CC_DESIGN_DATE_AND_TIME_ASSIGNMENT ( #233, #53, ( #63 ) ) ;
#204 = PRODUCT ( 'QB-CTZQWP-20-795-M', 'QB-CTZQWP-20-795-M', '', ( #121 ) ) ;
#205 = DATE_AND_TIME ( #181, #227 ) ;
#206 = COORDINATED_UNIVERSAL_TIME_OFFSET ( 8, 0, .AHEAD. ) ;
#207 = CALENDAR_DATE ( 2020, 24, 12 ) ;
#208 = CIRCLE ( 'NONE', #125, 10.00000000000000000 ) ;
#209 = LINE ( 'NONE', #107, #81 ) ;
#210 = AXIS2_PLACEMENT_3D ( 'NONE', #187, #266, #32 ) ;
#211 = CYLINDRICAL_SURFACE ( 'NONE', #238, 10.00000000000000000 ) ;
#212 = EDGE_LOOP ( 'NONE', ( #193, #10, #162, #118 ) ) ;
#213 = APPLICATION_CONTEXT ( 'configuration controlled 3d designs of mechanical parts and assemblies' ) ;
#214 = DIRECTION ( 'NONE',  ( -1.000000000000000000, -0.000000000000000000, -0.000000000000000000 ) ) ;
#215 = EDGE_CURVE ( 'NONE', #96, #240, #208, .T. ) ;
#216 = CARTESIAN_POINT ( 'NONE',  ( 2.999999999999999112, 0.000000000000000000, 10.00000000000000000 ) ) ;
#217 = ORIENTED_EDGE ( 'NONE', *, *, #232, .F. ) ;
#218 = ORIENTED_EDGE ( 'NONE', *, *, #166, .F. ) ;
#219 = ORIENTED_EDGE ( 'NONE', *, *, #301, .T. ) ;
#220 = FACE_OUTER_BOUND ( 'NONE', #244, .T. ) ;
#221 = PERSON ( 'UNSPECIFIED', 'UNSPECIFIED', 'UNSPECIFIED', ('UNSPECIFIED'), ('UNSPECIFIED'), ('UNSPECIFIED') ) ;
#222 = APPROVAL ( #281, 'UNSPECIFIED' ) ;
#223 = DIRECTION ( 'NONE',  ( -1.000000000000000000, -0.000000000000000000, -0.000000000000000000 ) ) ;
#224 = VERTEX_POINT ( 'NONE', #160 ) ;
#225 = DIRECTION ( 'NONE',  ( -1.000000000000000000, -0.000000000000000000, -0.000000000000000000 ) ) ;
#226 = AXIS2_PLACEMENT_3D ( 'NONE', #276, #145, #86 ) ;
#227 = LOCAL_TIME ( 9, 50, 31.00000000000000000, #30 ) ;
#228 = APPROVAL_STATUS ( 'not_yet_approved' ) ;
#229 = CARTESIAN_POINT ( 'NONE',  ( -1.614212418857619014, 0.000000000000000000, 0.000000000000000000 ) ) ;
#230 = VECTOR ( 'NONE', #289, 1000.000000000000000 ) ;
#231 = PERSON_AND_ORGANIZATION ( #221, #42 ) ;
#232 = EDGE_CURVE ( 'NONE', #170, #109, #155, .T. ) ;
#233 = DATE_AND_TIME ( #104, #306 ) ;
#234 = APPROVAL_PERSON_ORGANIZATION ( #51, #222, #27 ) ;
#235 = DIRECTION ( 'NONE',  ( 1.000000000000000000, 0.000000000000000000, 0.000000000000000000 ) ) ;
#236 = DIRECTION ( 'NONE',  ( 1.000000000000000000, 0.000000000000000000, 0.000000000000000000 ) ) ;
#237 = ORIENTED_EDGE ( 'NONE', *, *, #330, .T. ) ;
#238 = AXIS2_PLACEMENT_3D ( 'NONE', #80, #106, #6 ) ;
#239 = CARTESIAN_POINT ( 'NONE',  ( -3.000000000000000000, 10.00000000000000000, 0.000000000000000000 ) ) ;
#240 = VERTEX_POINT ( 'NONE', #85 ) ;
#241 = FACE_OUTER_BOUND ( 'NONE', #138, .T. ) ;
#242 = ORIENTED_EDGE ( 'NONE', *, *, #285, .F. ) ;
#243 = LINE ( 'NONE', #64, #59 ) ;
#244 = EDGE_LOOP ( 'NONE', ( #37, #66, #217, #67 ) ) ;
#245 = AXIS2_PLACEMENT_3D ( 'NONE', #43, #325, #70 ) ;
#246 = EDGE_LOOP ( 'NONE', ( #165, #92 ) ) ;
#247 = ORIENTED_EDGE ( 'NONE', *, *, #280, .T. ) ;
#248 = FACE_OUTER_BOUND ( 'NONE', #194, .T. ) ;
#249 =( NAMED_UNIT ( * ) SI_UNIT ( $, .STERADIAN. ) SOLID_ANGLE_UNIT ( ) );
#250 = EDGE_LOOP ( 'NONE', ( #40, #89, #296, #242 ) ) ;
#251 = FACE_OUTER_BOUND ( 'NONE', #246, .T. ) ;
#252 = AXIS2_PLACEMENT_3D ( 'NONE', #11, #111, #112 ) ;
#253 = AXIS2_PLACEMENT_3D ( 'NONE', #9, #36, #38 ) ;
#254 = APPLICATION_CONTEXT ( 'configuration controlled 3d designs of mechanical parts and assemblies' ) ;
#255 = CARTESIAN_POINT ( 'NONE',  ( 2.999999999999999112, 0.000000000000000000, 0.000000000000000000 ) ) ;
#256 = EDGE_CURVE ( 'NONE', #159, #240, #243, .T. ) ;
#257 = DIRECTION ( 'NONE',  ( -1.000000000000000000, -0.000000000000000000, -0.000000000000000000 ) ) ;
#258 = PERSON_AND_ORGANIZATION ( #221, #42 ) ;
#259 = APPROVAL_DATE_TIME ( #1, #49 ) ;
#260 = DATE_AND_TIME ( #207, #176 ) ;
#261 = AXIS2_PLACEMENT_3D ( 'NONE', #119, #225, #20 ) ;
#262 = PRODUCT_RELATED_PRODUCT_CATEGORY ( 'detail', '', ( #204 ) ) ;
#263 = CARTESIAN_POINT ( 'NONE',  ( -2.500000000000000444, 0.000000000000000000, 0.000000000000000000 ) ) ;
#264 = FACE_OUTER_BOUND ( 'NONE', #319, .T. ) ;
#265 = ORIENTED_EDGE ( 'NONE', *, *, #173, .F. ) ;
#266 = DIRECTION ( 'NONE',  ( -1.000000000000000000, -0.000000000000000000, -0.000000000000000000 ) ) ;
#267 = DIRECTION ( 'NONE',  ( -1.000000000000000000, -0.000000000000000000, -0.000000000000000000 ) ) ;
#268 = ORIENTED_EDGE ( 'NONE', *, *, #294, .F. ) ;
#269 = FACE_OUTER_BOUND ( 'NONE', #164, .T. ) ;
#270 = ORIENTED_EDGE ( 'NONE', *, *, #180, .T. ) ;
#271 = ORIENTED_EDGE ( 'NONE', *, *, #91, .F. ) ;
#272 = ORIENTED_EDGE ( 'NONE', *, *, #166, .T. ) ;
#273 = AXIS2_PLACEMENT_3D ( 'NONE', #18, #68, #168 ) ;
#274 = DIRECTION ( 'NONE',  ( -0.000000000000000000, 0.000000000000000000, 1.000000000000000000 ) ) ;
#275 = DIRECTION ( 'NONE',  ( -1.000000000000000000, -0.000000000000000000, -0.000000000000000000 ) ) ;
#276 = CARTESIAN_POINT ( 'NONE',  ( -2.500000000000000444, 0.000000000000000000, 0.000000000000000000 ) ) ;
#277 = ADVANCED_FACE ( 'NONE', ( #269 ), #13, .F. ) ;
#278 = DIRECTION ( 'NONE',  ( -1.000000000000000000, -0.000000000000000000, -0.000000000000000000 ) ) ;
#279 = PERSON_AND_ORGANIZATION ( #221, #42 ) ;
#280 = EDGE_CURVE ( 'NONE', #240, #96, #100, .T. ) ;
#281 = APPROVAL_STATUS ( 'not_yet_approved' ) ;
#282 = CC_DESIGN_APPROVAL ( #49, ( #63 ) ) ;
#283 = PERSON_AND_ORGANIZATION ( #221, #42 ) ;
#284 = MANIFOLD_SOLID_BREP ( 'Ðý×', #108 ) ;
#285 = EDGE_CURVE ( 'NONE', #109, #170, #139, .T. ) ;
#286 = AXIS2_PLACEMENT_3D ( 'NONE', #58, #267, #136 ) ;
#287 = LOCAL_TIME ( 9, 50, 31.00000000000000000, #310 ) ;
#288 = DIRECTION ( 'NONE',  ( -1.000000000000000000, -0.000000000000000000, -0.000000000000000000 ) ) ;
#289 = DIRECTION ( 'NONE',  ( -1.000000000000000000, -0.000000000000000000, -0.000000000000000000 ) ) ;
#290 = EDGE_LOOP ( 'NONE', ( #12, #33 ) ) ;
#291 = DIRECTION ( 'NONE',  ( -1.000000000000000000, -0.000000000000000000, -0.000000000000000000 ) ) ;
#292 = VERTEX_POINT ( 'NONE', #298 ) ;
#293 = DIRECTION ( 'NONE',  ( -1.000000000000000000, 0.000000000000000000, -0.000000000000000000 ) ) ;
#294 = EDGE_CURVE ( 'NONE', #186, #135, #182, .T. ) ;
#295 = VERTEX_POINT ( 'NONE', #97 ) ;
#296 = ORIENTED_EDGE ( 'NONE', *, *, #94, .T. ) ;
#297 = CARTESIAN_POINT ( 'NONE',  ( 3.000000000000000000, 0.000000000000000000, 0.000000000000000000 ) ) ;
#298 = CARTESIAN_POINT ( 'NONE',  ( -2.500000000000000444, 0.000000000000000000, 10.00000000000000000 ) ) ;
#299 = CARTESIAN_POINT ( 'NONE',  ( -1.614212418857619014, 0.000000000000000000, 0.000000000000000000 ) ) ;
#300 = CARTESIAN_POINT ( 'NONE',  ( -3.000000000000000000, 0.000000000000000000, 12.69999999999999929 ) ) ;
#301 = EDGE_CURVE ( 'NONE', #186, #224, #23, .T. ) ;
#302 = DIRECTION ( 'NONE',  ( 0.000000000000000000, 0.000000000000000000, 1.000000000000000000 ) ) ;
#303 = DIRECTION ( 'NONE',  ( 1.000000000000000000, 0.000000000000000000, 0.000000000000000000 ) ) ;
#304 = DIRECTION ( 'NONE',  ( 0.000000000000000000, 0.000000000000000000, 1.000000000000000000 ) ) ;
#305 = CIRCLE ( 'NONE', #22, 10.00000000000000000 ) ;
#306 = LOCAL_TIME ( 9, 50, 31.00000000000000000, #206 ) ;
#307 =( NAMED_UNIT ( * ) PLANE_ANGLE_UNIT ( ) SI_UNIT ( $, .RADIAN. ) );
#308 = APPROVAL_DATE_TIME ( #153, #334 ) ;
#309 = AXIS2_PLACEMENT_3D ( 'NONE', #188, #293, #163 ) ;
#310 = COORDINATED_UNIVERSAL_TIME_OFFSET ( 8, 0, .AHEAD. ) ;
#311 = ADVANCED_FACE ( 'NONE', ( #117 ), #202, .T. ) ;
#312 = ADVANCED_FACE ( 'NONE', ( #332 ), #196, .F. ) ;
#313 = CARTESIAN_POINT ( 'NONE',  ( 2.500000000000000888, 1.224646799147353256E-15, -10.00000000000000000 ) ) ;
#314 = LINE ( 'NONE', #83, #133 ) ;
#315 = ORIENTED_EDGE ( 'NONE', *, *, #215, .T. ) ;
#316 = CARTESIAN_POINT ( 'NONE',  ( -3.000000000000000444, 0.000000000000000000, 0.000000000000000000 ) ) ;
#317 = ORIENTED_EDGE ( 'NONE', *, *, #294, .T. ) ;
#318 = PLANE ( 'NONE',  #309 ) ;
#319 = EDGE_LOOP ( 'NONE', ( #39, #84 ) ) ;
#320 = CC_DESIGN_PERSON_AND_ORGANIZATION_ASSIGNMENT ( #231, #4, ( #189 ) ) ;
#321 = CYLINDRICAL_SURFACE ( 'NONE', #273, 10.00000000000000000 ) ;
#322 = ORIENTED_EDGE ( 'NONE', *, *, #180, .F. ) ;
#323 = PLANE ( 'NONE',  #148 ) ;
#324 = APPLICATION_PROTOCOL_DEFINITION ( 'international standard', 'config_control_design', 1994, #254 ) ;
#325 = DIRECTION ( 'NONE',  ( -1.000000000000000000, -0.000000000000000000, -0.000000000000000000 ) ) ;
#326 = AXIS2_PLACEMENT_3D ( 'NONE', #239, #235, #55 ) ;
#327 = DIRECTION ( 'NONE',  ( 0.000000000000000000, 0.000000000000000000, -1.000000000000000000 ) ) ;
#328 = AXIS2_PLACEMENT_3D ( 'NONE', #255, #223, #172 ) ;
#329 = UNCERTAINTY_MEASURE_WITH_UNIT (LENGTH_MEASURE( 1.000000000000000082E-05 ), #123, 'distance_accuracy_value', 'NONE');
#330 = EDGE_CURVE ( 'NONE', #135, #186, #183, .T. ) ;
#331 = CALENDAR_DATE ( 2020, 24, 12 ) ;
#332 = FACE_OUTER_BOUND ( 'NONE', #7, .T. ) ;
#333 = AXIS2_PLACEMENT_3D ( 'NONE', #149, #19, #74 ) ;
#334 = APPROVAL ( #152, 'UNSPECIFIED' ) ;
#335 = APPROVAL_DATE_TIME ( #260, #222 ) ;
ENDSEC;
END-ISO-10303-21;
